  0
SECTION
  2
HEADER
  9
$ACADVER
  1
AC1015
  9
$ACADMAINTVER
 70
     6
  9
$DWGCODEPAGE
  3
ANSI_1254
  9
$INSBASE
 10
0.0
 20
0.0
 30
0.0
  9
$EXTMIN
 10
0.0
 20
0.0
 30
0.0
  9
$EXTMAX
 10
279.4
 20
215.9
 30
0.0
  9
$LIMMIN
 10
0.0
 20
0.0
  9
$LIMMAX
 10
279.4
 20
215.9
  9
$ORTHOMODE
 70
     0
  9
$REGENMODE
 70
     1
  9
$FILLMODE
 70
     1
  9
$QTEXTMODE
 70
     0
  9
$MIRRTEXT
 70
     1
  9
$LTSCALE
 40
1.0
  9
$ATTMODE
 70
     1
  9
$TEXTSIZE
 40
3.5
  9
$TRACEWID
 40
1.0
  9
$TEXTSTYLE
  7
Standard
  9
$CLAYER
  8
0
  9
$CELTYPE
  6
ByLayer
  9
$CECOLOR
 62
   256
  9
$CELTSCALE
 40
1.0
  9
$DISPSILH
 70
     0
  9
$DIMSCALE
 40
1.0
  9
$DIMASZ
 40
3.5
  9
$DIMEXO
 40
1.0
  9
$DIMDLI
 40
3.75
  9
$DIMRND
 40
0.0
  9
$DIMDLE
 40
0.0
  9
$DIMEXE
 40
1.0
  9
$DIMTP
 40
0.0
  9
$DIMTM
 40
0.0
  9
$DIMTXT
 40
3.5
  9
$DIMCEN
 40
2.5
  9
$DIMTSZ
 40
0.0
  9
$DIMTOL
 70
     0
  9
$DIMLIM
 70
     0
  9
$DIMTIH
 70
     1
  9
$DIMTOH
 70
     1
  9
$DIMSE1
 70
     0
  9
$DIMSE2
 70
     0
  9
$DIMTAD
 70
     1
  9
$DIMZIN
 70
     0
  9
$DIMBLK
  1

  9
$DIMASO
 70
     1
  9
$DIMSHO
 70
     1
  9
$DIMPOST
  1

  9
$DIMAPOST
  1

  9
$DIMALT
 70
     0
  9
$DIMALTD
 70
     3
  9
$DIMALTF
 40
0.0393700787
  9
$DIMLFAC
 40
1.0
  9
$DIMTOFL
 70
     1
  9
$DIMTVP
 40
0.0
  9
$DIMTIX
 70
     0
  9
$DIMSOXD
 70
     0
  9
$DIMSAH
 70
     0
  9
$DIMBLK1
  1

  9
$DIMBLK2
  1

  9
$DIMSTYLE
  2
ISO-25
  9
$DIMCLRD
 70
     0
  9
$DIMCLRE
 70
     0
  9
$DIMCLRT
 70
     0
  9
$DIMTFAC
 40
1.0
  9
$DIMGAP
 40
1.524
  9
$DIMJUST
 70
     0
  9
$DIMSD1
 70
     0
  9
$DIMSD2
 70
     0
  9
$DIMTOLJ
 70
     0
  9
$DIMTZIN
 70
     0
  9
$DIMALTZ
 70
     0
  9
$DIMALTTZ
 70
     0
  9
$DIMUPT
 70
     0
  9
$DIMDEC
 70
     2
  9
$DIMTDEC
 70
     2
  9
$DIMALTU
 70
     2
  9
$DIMALTTD
 70
     3
  9
$DIMTXSTY
  7
Standard
  9
$DIMAUNIT
 70
     0
  9
$DIMADEC
 70
     2
  9
$DIMALTRND
 40
0.0
  9
$DIMAZIN
 70
     0
  9
$DIMDSEP
 70
    44
  9
$DIMATFIT
 70
     3
  9
$DIMFRAC
 70
     0
  9
$DIMLDRBLK
  1

  9
$DIMLUNIT
 70
     2
  9
$DIMLWD
 70
    -2
  9
$DIMLWE
 70
    -2
  9
$DIMTMOVE
 70
     0
  9
$LUNITS
 70
     2
  9
$LUPREC
 70
     2
  9
$SKETCHINC
 40
1.0
  9
$FILLETRAD
 40
10.0
  9
$AUNITS
 70
     0
  9
$AUPREC
 70
     2
  9
$MENU
  1
.
  9
$ELEVATION
 40
0.0
  9
$PELEVATION
 40
0.0
  9
$THICKNESS
 40
0.0
  9
$LIMCHECK
 70
     0
  9
$CHAMFERA
 40
0.0
  9
$CHAMFERB
 40
0.0
  9
$CHAMFERC
 40
0.0
  9
$CHAMFERD
 40
0.0
  9
$SKPOLY
 70
     0
  9
$TDCREATE
 40
2458985.698503403
  9
$TDUCREATE
 40
2458985.573503403
  9
$TDUPDATE
 40
2458985.698503657
  9
$TDUUPDATE
 40
2458985.573503657
  9
$TDINDWG
 40
0.0000000116
  9
$TDUSRTIMER
 40
0.0000000116
  9
$USRTIMER
 70
     1
  9
$ANGBASE
 50
0.0
  9
$ANGDIR
 70
     0
  9
$PDMODE
 70
     0
  9
$PDSIZE
 40
-1.0
  9
$PLINEWID
 40
0.0
  9
$SPLFRAME
 70
     0
  9
$SPLINETYPE
 70
     6
  9
$SPLINESEGS
 70
     8
  9
$HANDSEED
  5
E9
  9
$SURFTAB1
 70
     6
  9
$SURFTAB2
 70
     6
  9
$SURFTYPE
 70
     6
  9
$SURFU
 70
     6
  9
$SURFV
 70
     6
  9
$UCSBASE
  2

  9
$UCSNAME
  2

  9
$UCSORG
 10
0.0
 20
0.0
 30
0.0
  9
$UCSXDIR
 10
1.0
 20
0.0
 30
0.0
  9
$UCSYDIR
 10
0.0
 20
1.0
 30
0.0
  9
$UCSORTHOREF
  2

  9
$UCSORTHOVIEW
 70
     0
  9
$UCSORGTOP
 10
0.0
 20
0.0
 30
0.0
  9
$UCSORGBOTTOM
 10
0.0
 20
0.0
 30
0.0
  9
$UCSORGLEFT
 10
0.0
 20
0.0
 30
0.0
  9
$UCSORGRIGHT
 10
0.0
 20
0.0
 30
0.0
  9
$UCSORGFRONT
 10
0.0
 20
0.0
 30
0.0
  9
$UCSORGBACK
 10
0.0
 20
0.0
 30
0.0
  9
$PUCSBASE
  2

  9
$PUCSNAME
  2

  9
$PUCSORG
 10
0.0
 20
0.0
 30
0.0
  9
$PUCSXDIR
 10
1.0
 20
0.0
 30
0.0
  9
$PUCSYDIR
 10
0.0
 20
1.0
 30
0.0
  9
$PUCSORTHOREF
  2

  9
$PUCSORTHOVIEW
 70
     0
  9
$PUCSORGTOP
 10
0.0
 20
0.0
 30
0.0
  9
$PUCSORGBOTTOM
 10
0.0
 20
0.0
 30
0.0
  9
$PUCSORGLEFT
 10
0.0
 20
0.0
 30
0.0
  9
$PUCSORGRIGHT
 10
0.0
 20
0.0
 30
0.0
  9
$PUCSORGFRONT
 10
0.0
 20
0.0
 30
0.0
  9
$PUCSORGBACK
 10
0.0
 20
0.0
 30
0.0
  9
$USERI1
 70
     0
  9
$USERI2
 70
     0
  9
$USERI3
 70
     0
  9
$USERI4
 70
     0
  9
$USERI5
 70
     0
  9
$USERR1
 40
0.0
  9
$USERR2
 40
0.0
  9
$USERR3
 40
0.0
  9
$USERR4
 40
0.0
  9
$USERR5
 40
0.0
  9
$WORLDVIEW
 70
     1
  9
$SHADEDGE
 70
     3
  9
$SHADEDIF
 70
    70
  9
$TILEMODE
 70
     1
  9
$MAXACTVP
 70
    64
  9
$PINSBASE
 10
0.0
 20
0.0
 30
0.0
  9
$PLIMCHECK
 70
     0
  9
$PEXTMIN
 10
1.0000000000E+20
 20
1.0000000000E+20
 30
1.0000000000E+20
  9
$PEXTMAX
 10
-1.0000000000E+20
 20
-1.0000000000E+20
 30
-1.0000000000E+20
  9
$PLIMMIN
 10
0.0
 20
0.0
  9
$PLIMMAX
 10
420.0
 20
297.0
  9
$UNITMODE
 70
     0
  9
$VISRETAIN
 70
     1
  9
$PLINEGEN
 70
     0
  9
$PSLTSCALE
 70
     1
  9
$TREEDEPTH
 70
  3020
  9
$CMLSTYLE
  2
Standard
  9
$CMLJUST
 70
     0
  9
$CMLSCALE
 40
20.0
  9
$PROXYGRAPHICS
 70
     1
  9
$MEASUREMENT
 70
     1
  9
$CELWEIGHT
370
    -1
  9
$ENDCAPS
280
     0
  9
$JOINSTYLE
280
     0
  9
$LWDISPLAY
290
     1
  9
$INSUNITS
 70
     4
  9
$HYPERLINKBASE
  1

  9
$STYLESHEET
  1

  9
$XEDIT
290
     1
  9
$CEPSNTYPE
380
     0
  9
$PSTYLEMODE
290
     1
  9
$FINGERPRINTGUID
  2
{d7dc8223-7f91-40da-9380-c8483aa2c765}
  9
$VERSIONGUID
  2
{FAEB1C32-E019-11D5-929B-00C0DF256EC4}
  9
$EXTNAMES
290
     1
  9
$PSVPSCALE
 40
0.0
  9
$OLESTARTUP
290
     0
  0
ENDSEC
  0
SECTION
  2
CLASSES
  0
CLASS
  1
ACDBDICTIONARYWDFLT
  2
AcDbDictionaryWithDefault
  3
ObjectDBX Classes
 90
        0
280
     0
281
     0
  0
CLASS
  1
VISUALSTYLE
  2
AcDbVisualStyle
  3
ObjectDBX Classes
 90
     4095
280
     0
281
     0
  0
CLASS
  1
MATERIAL
  2
AcDbMaterial
  3
ObjectDBX Classes
 90
     1153
280
     0
281
     0
  0
CLASS
  1
SCALE
  2
AcDbScale
  3
ObjectDBX Classes
 90
     1153
280
     0
281
     0
  0
CLASS
  1
TABLESTYLE
  2
AcDbTableStyle
  3
ObjectDBX Classes
 90
     4095
280
     0
281
     0
  0
CLASS
  1
MLEADERSTYLE
  2
AcDbMLeaderStyle
  3
ACDB_MLEADERSTYLE_CLASS
 90
     4095
280
     0
281
     0
  0
CLASS
  1
SUN
  2
AcDbSun
  3
SCENEOE
 90
     1153
280
     0
281
     0
  0
CLASS
  1
ACDBPLACEHOLDER
  2
AcDbPlaceHolder
  3
ObjectDBX Classes
 90
        0
280
     0
281
     0
  0
CLASS
  1
LAYOUT
  2
AcDbLayout
  3
ObjectDBX Classes
 90
        0
280
     0
281
     0
  0
ENDSEC
  0
SECTION
  2
TABLES
  0
TABLE
  2
VPORT
  5
8
330
0
100
AcDbSymbolTable
 70
     1
  0
VPORT
  5
29
330
8
100
AcDbSymbolTableRecord
100
AcDbViewportTableRecord
  2
*Active
 70
     0
 10
0.0
 20
0.0
 11
1.0
 21
1.0
 12
139.7
 22
107.95
 13
0.0
 23
0.0
 14
10.0
 24
10.0
 15
10.0
 25
10.0
 16
0.0
 26
0.0
 36
1.0
 17
0.0
 27
0.0
 37
0.0
 40
215.9
 41
1.2941176471
 42
50.0
 43
0.0
 44
0.0
 50
0.0
 51
0.0
 71
     0
 72
  2000
 73
     1
 74
     3
 75
     0
 76
     0
 77
     0
 78
     0
281
     0
 65
     1
110
0.0
120
0.0
130
0.0
111
1.0
121
0.0
131
0.0
112
0.0
122
1.0
132
0.0
 79
     0
146
0.0
  0
ENDTAB
  0
TABLE
  2
LTYPE
  5
5
330
0
100
AcDbSymbolTable
 70
     6
  0
LTYPE
  5
14
330
5
100
AcDbSymbolTableRecord
100
AcDbLinetypeTableRecord
  2
ByBlock
 70
     0
  3

 72
    65
 73
     0
 40
0.0
  0
LTYPE
  5
15
330
5
100
AcDbSymbolTableRecord
100
AcDbLinetypeTableRecord
  2
ByLayer
 70
     0
  3

 72
    65
 73
     0
 40
0.0
  0
LTYPE
  5
16
330
5
100
AcDbSymbolTableRecord
100
AcDbLinetypeTableRecord
  2
Continuous
 70
     0
  3
Solid line
 72
    65
 73
     0
 40
0.0
  0
LTYPE
  5
6E
330
5
100
AcDbSymbolTableRecord
100
AcDbLinetypeTableRecord
  2
HIDDEN
 70
     0
  3
Hidden __ __ __ __ __ __ __ __ __ __ __ __ __ __
 72
    65
 73
     2
 40
1.905
 49
1.27
 74
     0
 49
-0.635
 74
     0
  0
LTYPE
  5
6F
330
5
100
AcDbSymbolTableRecord
100
AcDbLinetypeTableRecord
  2
PHANTOM
 70
     0
  3
Phantom ______  __  __  ______  __  __  ______
 72
    65
 73
     6
 40
12.7
 49
6.35
 74
     0
 49
-1.27
 74
     0
 49
1.27
 74
     0
 49
-1.27
 74
     0
 49
1.27
 74
     0
 49
-1.27
 74
     0
  0
LTYPE
  5
70
330
5
100
AcDbSymbolTableRecord
100
AcDbLinetypeTableRecord
  2
CENTER
 70
     0
  3
Center ____ _ ____ _ ____ _ ____ _ ____ _ ____
 72
    65
 73
     4
 40
10.16
 49
6.35
 74
     0
 49
-1.27
 74
     0
 49
1.27
 74
     0
 49
-1.27
 74
     0
  0
LTYPE
  5
71
330
5
100
AcDbSymbolTableRecord
100
AcDbLinetypeTableRecord
  2
CENTERX2
 70
     0
  3
Center (2x) ________  __  ________  __  _____
 72
    65
 73
     4
 40
20.32
 49
12.7
 74
     0
 49
-2.54
 74
     0
 49
2.54
 74
     0
 49
-2.54
 74
     0
  0
LTYPE
  5
72
330
5
100
AcDbSymbolTableRecord
100
AcDbLinetypeTableRecord
  2
DOT2
 70
     0
  3
Dot (.5x) ........................................
 72
    65
 73
     2
 40
0.635
 49
0.0
 74
     0
 49
-0.635
 74
     0
  0
ENDTAB
  0
TABLE
  2
LAYER
  5
2
330
0
100
AcDbSymbolTable
 70
    17
  0
LAYER
  5
10
330
2
100
AcDbSymbolTableRecord
100
AcDbLayerTableRecord
  2
0
 70
     0
 62
     7
  6
Continuous
370
    -3
390
F
  0
LAYER
  5
73
330
2
100
AcDbSymbolTableRecord
100
AcDbLayerTableRecord
  2
FORMAT
 70
     0
 62
     7
  6
Continuous
370
    -3
390
F
  0
LAYER
  5
74
330
2
100
AcDbSymbolTableRecord
100
AcDbLayerTableRecord
  2
YARDIMCI_GEOMETRI
 70
     0
 62
    -6
  6
Continuous
290
     0
370
    -3
390
F
  0
LAYER
  5
75
330
2
100
AcDbSymbolTableRecord
100
AcDbLayerTableRecord
  2
SAYFA_CERCEVESI
 70
     0
 62
     7
  6
Continuous
370
    25
390
F
  0
LAYER
  5
76
330
2
100
AcDbSymbolTableRecord
100
AcDbLayerTableRecord
  2
ANTET
 70
     0
 62
     7
  6
Continuous
370
    -3
390
F
  0
LAYER
  5
77
330
2
100
AcDbSymbolTableRecord
100
AcDbLayerTableRecord
  2
OLCU
 70
     0
 62
   150
  6
Continuous
370
    -3
390
F
  0
LAYER
  5
78
330
2
100
AcDbSymbolTableRecord
100
AcDbLayerTableRecord
  2
METIN
 70
     0
 62
    96
  6
Continuous
370
    -3
390
F
  0
LAYER
  5
79
330
2
100
AcDbSymbolTableRecord
100
AcDbLayerTableRecord
  2
BALON
 70
     0
 62
     5
  6
Continuous
370
    -3
390
F
  0
LAYER
  5
7A
330
2
100
AcDbSymbolTableRecord
100
AcDbLayerTableRecord
  2
VURGU
 70
     0
 62
     7
  6
Continuous
370
    -3
390
F
  0
LAYER
  5
7B
330
2
100
AcDbSymbolTableRecord
100
AcDbLayerTableRecord
  2
SILIK
 70
     0
 62
     7
  6
Continuous
370
    -3
390
F
  0
LAYER
  5
7C
330
2
100
AcDbSymbolTableRecord
100
AcDbLayerTableRecord
  2
MODEL
 70
     0
 62
     7
  6
Continuous
370
    -3
390
F
  0
LAYER
  5
7D
330
2
100
AcDbSymbolTableRecord
100
AcDbLayerTableRecord
  2
DETAYLANDıRMA
 70
     0
 62
   190
  6
Continuous
370
    -3
390
F
  0
LAYER
  5
7E
330
2
100
AcDbSymbolTableRecord
100
AcDbLayerTableRecord
  2
TOLERANS
 70
     0
 62
   230
  6
Continuous
370
    -3
390
F
  0
LAYER
  5
7F
330
2
100
AcDbSymbolTableRecord
100
AcDbLayerTableRecord
  2
MERKEZ_CIZGILERI
 70
     0
 62
    30
  6
Continuous
370
    -3
390
F
  0
LAYER
  5
80
330
2
100
AcDbSymbolTableRecord
100
AcDbLayerTableRecord
  2
KESIT-DETAY_CIZGILERI
 70
     0
 62
     7
  6
Continuous
370
    -3
390
F
  0
LAYER
  5
81
330
2
100
AcDbSymbolTableRecord
100
AcDbLayerTableRecord
  2
\U+041E\U+0421\U+0415\U+0412\U+042B\U+0415
 70
     0
 62
     7
  6
Continuous
370
    -3
390
F
  0
LAYER
  5
82
330
2
100
AcDbSymbolTableRecord
100
AcDbLayerTableRecord
  2
\U+0412\U+041E\U+0414\U+042F\U+041D\U+042B\U+0415_\U+0417\U+041D\U+0410\U+041A\U+0418
 70
     0
 62
    11
  6
Continuous
370
    -3
390
F
  0
ENDTAB
  0
TABLE
  2
STYLE
  5
3
330
0
100
AcDbSymbolTable
 70
     1
  0
STYLE
  5
11
330
3
100
AcDbSymbolTableRecord
100
AcDbTextStyleTableRecord
  2
Standard
 70
     0
 40
0.0
 41
1.0
 50
0.0
 71
     0
 42
3.5
  3
txt
  4

  0
ENDTAB
  0
TABLE
  2
VIEW
  5
6
330
0
100
AcDbSymbolTable
 70
     0
  0
ENDTAB
  0
TABLE
  2
UCS
  5
7
330
0
100
AcDbSymbolTable
 70
     0
  0
ENDTAB
  0
TABLE
  2
APPID
  5
9
330
0
100
AcDbSymbolTable
 70
     1
  0
APPID
  5
12
330
9
100
AcDbSymbolTableRecord
100
AcDbRegAppTableRecord
  2
ACAD
 70
     0
  0
ENDTAB
  0
TABLE
  2
DIMSTYLE
  5
A
330
0
100
AcDbSymbolTable
 70
     1
100
AcDbDimStyleTable
  0
DIMSTYLE
105
27
330
A
100
AcDbSymbolTableRecord
100
AcDbDimStyleTableRecord
  2
ISO-25
 70
     0
 41
2.5
 42
0.625
 43
3.75
 44
1.25
 73
     0
 74
     0
 77
     1
 78
     8
140
2.5
141
2.5
143
0.0393700787
147
0.625
171
     3
172
     1
178
     0
271
     2
272
     2
274
     3
278
    44
283
     0
284
     8
340
11
  0
ENDTAB
  0
TABLE
  2
BLOCK_RECORD
  5
1
330
0
100
AcDbSymbolTable
 70
     2
  0
BLOCK_RECORD
  5
1F
330
1
100
AcDbSymbolTableRecord
100
AcDbBlockTableRecord
  2
*Model_Space
340
22
  0
BLOCK_RECORD
  5
1B
330
1
100
AcDbSymbolTableRecord
100
AcDbBlockTableRecord
  2
*Paper_Space
340
1E
  0
BLOCK_RECORD
  5
23
330
1
100
AcDbSymbolTableRecord
100
AcDbBlockTableRecord
  2
*Paper_Space0
340
26
  0
BLOCK_RECORD
  5
88
330
1
100
AcDbSymbolTableRecord
100
AcDbBlockTableRecord
  2
SW_CENTERMARKSYMBOL_0
340
0
102
{BLKREFS
331
93
102
}
  0
ENDTAB
  0
ENDSEC
  0
SECTION
  2
BLOCKS
  0
BLOCK
  5
20
330
1F
100
AcDbEntity
  8
0
100
AcDbBlockBegin
  2
*Model_Space
 70
     0
 10
0.0
 20
0.0
 30
0.0
  3
*Model_Space
  1

  0
ENDBLK
  5
21
330
1F
100
AcDbEntity
  8
0
100
AcDbBlockEnd
  0
BLOCK
  5
1C
330
1B
100
AcDbEntity
 67
     1
  8
0
100
AcDbBlockBegin
  2
*Paper_Space
 70
     0
 10
0.0
 20
0.0
 30
0.0
  3
*Paper_Space
  1

  0
ENDBLK
  5
1D
330
1B
100
AcDbEntity
 67
     1
  8
0
100
AcDbBlockEnd
  0
BLOCK
  5
24
330
23
100
AcDbEntity
  8
0
100
AcDbBlockBegin
  2
*Paper_Space0
 70
     0
 10
0.0
 20
0.0
 30
0.0
  3
*Paper_Space0
  1

  0
ENDBLK
  5
25
330
23
100
AcDbEntity
  8
0
100
AcDbBlockEnd
  0
BLOCK
  5
89
330
88
100
AcDbEntity
  8
0
100
AcDbBlockBegin
  2
SW_CENTERMARKSYMBOL_0
 70
     0
 10
0.0
 20
0.0
 30
0.0
  3
SW_CENTERMARKSYMBOL_0
  1

  0
LINE
  5
8B
330
88
100
AcDbEntity
  8
FORMAT
 62
     0
100
AcDbLine
 10
0.0
 20
0.0
 30
0.0
 11
0.0
 21
2.5
 31
0.0
  0
LINE
  5
8C
330
88
100
AcDbEntity
  8
FORMAT
 62
     0
100
AcDbLine
 10
0.0
 20
0.0
 30
0.0
 11
-2.5
 21
0.0
 31
0.0
  0
LINE
  5
8D
330
88
100
AcDbEntity
  8
FORMAT
 62
     0
100
AcDbLine
 10
0.0
 20
0.0
 30
0.0
 11
0.0
 21
-2.5
 31
0.0
  0
LINE
  5
8E
330
88
100
AcDbEntity
  8
FORMAT
 62
     0
100
AcDbLine
 10
0.0
 20
0.0
 30
0.0
 11
2.5
 21
0.0
 31
0.0
  0
LINE
  5
8F
330
88
100
AcDbEntity
  8
FORMAT
 62
     0
100
AcDbLine
 10
0.0
 20
5.0
 30
0.0
 11
0.0
 21
22.5
 31
0.0
  0
LINE
  5
90
330
88
100
AcDbEntity
  8
FORMAT
 62
     0
100
AcDbLine
 10
-5.0
 20
0.0
 30
0.0
 11
-22.5
 21
0.0
 31
0.0
  0
LINE
  5
91
330
88
100
AcDbEntity
  8
FORMAT
 62
     0
100
AcDbLine
 10
0.0
 20
-5.0
 30
0.0
 11
0.0
 21
-22.5
 31
0.0
  0
LINE
  5
92
330
88
100
AcDbEntity
  8
FORMAT
 62
     0
100
AcDbLine
 10
5.0
 20
0.0
 30
0.0
 11
22.5
 21
0.0
 31
0.0
  0
ENDBLK
  5
8A
330
88
100
AcDbEntity
  8
0
100
AcDbBlockEnd
  0
ENDSEC
  0
SECTION
  2
ENTITIES
  0
CIRCLE
  5
83
330
1F
100
AcDbEntity
  8
0
  6
Continuous
 62
     7
370
    25
100
AcDbCircle
 10
139.395004093
 20
107.5851680021
 30
0.0
 40
20.0
  0
CIRCLE
  5
84
330
1F
100
AcDbEntity
  8
0
  6
Continuous
 62
     7
370
    25
100
AcDbCircle
 10
139.395004093
 20
107.5851680021
 30
0.0
 40
16.30000000000001
  0
CIRCLE
  5
85
330
1F
100
AcDbEntity
  8
0
  6
Continuous
 62
     7
370
    25
100
AcDbCircle
 10
139.395004093
 20
107.5851680021
 30
0.0
 40
16.21436093467162
  0
CIRCLE
  5
86
330
1F
100
AcDbEntity
  8
0
  6
Continuous
 62
     7
370
    25
100
AcDbCircle
 10
139.395004093
 20
107.5851680021
 30
0.0
 40
9.585639065328394
  0
CIRCLE
  5
87
330
1F
100
AcDbEntity
  8
0
  6
Continuous
 62
     7
370
    25
100
AcDbCircle
 10
139.395004093
 20
107.5851680021
 30
0.0
 40
9.5
  0
INSERT
  5
93
330
1F
100
AcDbEntity
  8
FORMAT
 62
     7
100
AcDbBlockReference
  2
SW_CENTERMARKSYMBOL_0
 10
139.395004093
 20
107.5851680021
 30
0.0
  0
LINE
  5
94
330
1F
100
AcDbEntity
  8
0
  6
Continuous
 62
     7
370
    25
100
AcDbLine
 10
1.692095921
 20
127.5851675551
 30
0.0
 11
-47.1220201248
 21
127.5851675551
 31
0.0
  0
LINE
  5
95
330
1F
100
AcDbEntity
  8
0
  6
Continuous
 62
     7
370
    25
100
AcDbLine
 10
-47.1220201248
 20
87.5851684491
 30
0.0
 11
1.692095921
 21
87.5851684491
 31
0.0
  0
ARC
  5
96
330
1F
100
AcDbEntity
  8
0
  6
Continuous
 62
     7
370
    25
100
AcDbCircle
 10
1.6920959531
 20
125.5851680021
 30
0.0
 40
2.000000000000002
100
AcDbArc
 50
79.3803447238
 51
90.0
  0
ARC
  5
97
330
1F
100
AcDbEntity
  8
0
  6
Continuous
 62
     7
370
    25
100
AcDbCircle
 10
1.6920959531
 20
89.5851680021
 30
0.0
 40
2.000000000000002
100
AcDbArc
 50
270.0
 51
280.6196552762
  0
LINE
  5
98
330
1F
100
AcDbEntity
  8
0
  6
Continuous
 62
     7
370
    25
100
AcDbLine
 10
2.0606724178
 20
87.6194243561
 30
0.0
 11
41.6952801501
 21
95.0509128402
 31
0.0
  0
LINE
  5
99
330
1F
100
AcDbEntity
  8
0
  6
Continuous
 62
     7
370
    25
100
AcDbLine
 10
41.6952801501
 20
120.119423164
 30
0.0
 11
2.0606724178
 21
127.5509116481
 31
0.0
  0
ARC
  5
9A
330
1F
100
AcDbEntity
  8
0
  6
Continuous
 62
     7
370
    25
100
AcDbCircle
 10
42.0638567479
 20
122.0851680021
 30
0.0
 40
2.000000000000014
100
AcDbArc
 50
259.3803447238
 51
270.0
  0
ARC
  5
9B
330
1F
100
AcDbEntity
  8
0
  6
Continuous
 62
     7
370
    25
100
AcDbCircle
 10
42.0638567479
 20
93.0851680021
 30
0.0
 40
2.0
100
AcDbArc
 50
90.0
 51
100.6196552762
  0
LINE
  5
9C
330
1F
100
AcDbEntity
  8
0
  6
Continuous
 62
     7
370
    25
100
AcDbLine
 10
82.8779751068
 20
120.0851681884
 30
0.0
 11
42.063856647
 21
120.0851681884
 31
0.0
  0
LINE
  5
9D
330
1F
100
AcDbEntity
  8
0
  6
Continuous
 62
     7
370
    25
100
AcDbLine
 10
42.063856647
 20
95.0851678159
 30
0.0
 11
82.8779751068
 21
95.0851678159
 31
0.0
  0
LINE
  5
9E
330
1F
100
AcDbEntity
  8
0
  6
Continuous
 62
     7
370
    25
100
AcDbLine
 10
-47.1220201248
 20
127.5851675551
 30
0.0
 11
-47.1220201248
 21
87.5851684491
 31
0.0
  0
LINE
  5
9F
330
1F
100
AcDbEntity
  8
0
  6
Continuous
 62
     7
370
    25
100
AcDbLine
 10
82.8779751068
 20
120.0851681884
 30
0.0
 11
82.8779751068
 21
95.0851678159
 31
0.0
  0
LINE
  5
A0
330
1F
100
AcDbEntity
  8
0
  6
Continuous
 62
     1
370
    25
100
AcDbLine
 10
1.692095921
 20
127.5851675551
 30
0.0
 11
1.692095921
 21
87.5851684491
 31
0.0
  0
LINE
  5
A1
330
1F
100
AcDbEntity
  8
0
  6
Continuous
 62
     1
370
    25
100
AcDbLine
 10
2.0606724178
 20
127.5509116481
 30
0.0
 11
2.0606724178
 21
87.6194243561
 31
0.0
  0
LINE
  5
A2
330
1F
100
AcDbEntity
  8
0
  6
Continuous
 62
     1
370
    25
100
AcDbLine
 10
41.6952801501
 20
120.119423164
 30
0.0
 11
41.6952801501
 21
95.0509128402
 31
0.0
  0
LINE
  5
A3
330
1F
100
AcDbEntity
  8
0
  6
Continuous
 62
     1
370
    25
100
AcDbLine
 10
42.063856647
 20
120.0851681884
 30
0.0
 11
42.063856647
 21
95.0851678159
 31
0.0
  0
LINE
  5
A4
330
1F
100
AcDbEntity
  8
0
  6
Continuous
 62
     7
370
    25
100
AcDbLine
 10
289.832535789
 20
87.5851684491
 30
0.0
 11
338.6466518348
 21
87.5851684491
 31
0.0
  0
LINE
  5
A5
330
1F
100
AcDbEntity
  8
0
  6
Continuous
 62
     7
370
    25
100
AcDbLine
 10
338.6466518348
 20
127.5851675551
 30
0.0
 11
289.832535789
 21
127.5851675551
 31
0.0
  0
ARC
  5
A6
330
1F
100
AcDbEntity
  8
0
  6
Continuous
 62
     7
370
    25
100
AcDbCircle
 10
289.8325357568
 20
89.5851680021
 30
0.0
 40
2.000000000000007
100
AcDbArc
 50
259.3803447238
 51
270.0
  0
ARC
  5
A7
330
1F
100
AcDbEntity
  8
0
  6
Continuous
 62
     7
370
    25
100
AcDbCircle
 10
289.8325357568
 20
125.5851680021
 30
0.0
 40
2.000000000000007
100
AcDbArc
 50
90.0
 51
100.6196552762
  0
LINE
  5
A8
330
1F
100
AcDbEntity
  8
0
  6
Continuous
 62
     7
370
    25
100
AcDbLine
 10
289.4639592921
 20
127.5509116481
 30
0.0
 11
249.8293515598
 21
120.119423164
 31
0.0
  0
LINE
  5
A9
330
1F
100
AcDbEntity
  8
0
  6
Continuous
 62
     7
370
    25
100
AcDbLine
 10
249.8293515598
 20
95.0509128402
 30
0.0
 11
289.4639592921
 21
87.6194243561
 31
0.0
  0
ARC
  5
AA
330
1F
100
AcDbEntity
  8
0
  6
Continuous
 62
     7
370
    25
100
AcDbCircle
 10
249.460774962
 20
93.0851680021
 30
0.0
 40
2.0
100
AcDbArc
 50
79.3803447238
 51
90.0
  0
ARC
  5
AB
330
1F
100
AcDbEntity
  8
0
  6
Continuous
 62
     7
370
    25
100
AcDbCircle
 10
249.460774962
 20
122.0851680021
 30
0.0
 40
2.000000000000014
100
AcDbArc
 50
270.0
 51
280.6196552762
  0
LINE
  5
AC
330
1F
100
AcDbEntity
  8
0
  6
Continuous
 62
     7
370
    25
100
AcDbLine
 10
208.6466566032
 20
95.0851678159
 30
0.0
 11
249.460775063
 21
95.0851678159
 31
0.0
  0
LINE
  5
AD
330
1F
100
AcDbEntity
  8
0
  6
Continuous
 62
     7
370
    25
100
AcDbLine
 10
249.460775063
 20
120.0851681884
 30
0.0
 11
208.6466566032
 21
120.0851681884
 31
0.0
  0
LINE
  5
AE
330
1F
100
AcDbEntity
  8
0
  6
Continuous
 62
     7
370
    25
100
AcDbLine
 10
338.6466518348
 20
107.5851680021
 30
0.0
 11
338.6466518348
 21
127.5851675551
 31
0.0
  0
LINE
  5
AF
330
1F
100
AcDbEntity
  8
0
  6
Continuous
 62
     7
370
    25
100
AcDbLine
 10
338.6466518348
 20
87.5851684491
 30
0.0
 11
338.6466518348
 21
107.5851680021
 31
0.0
  0
LINE
  5
B0
330
1F
100
AcDbEntity
  8
0
  6
Continuous
 62
     7
370
    25
100
AcDbLine
 10
208.6466566032
 20
107.5851680021
 30
0.0
 11
208.6466566032
 21
120.0851681884
 31
0.0
  0
LINE
  5
B1
330
1F
100
AcDbEntity
  8
0
  6
Continuous
 62
     7
370
    25
100
AcDbLine
 10
208.6466566032
 20
95.0851678159
 30
0.0
 11
208.6466566032
 21
107.5851680021
 31
0.0
  0
LINE
  5
B2
330
1F
100
AcDbEntity
  8
0
  6
Continuous
 62
     1
370
    25
100
AcDbLine
 10
289.832535789
 20
107.5851680021
 30
0.0
 11
289.832535789
 21
127.5851675551
 31
0.0
  0
LINE
  5
B3
330
1F
100
AcDbEntity
  8
0
  6
Continuous
 62
     1
370
    25
100
AcDbLine
 10
289.832535789
 20
87.5851684491
 30
0.0
 11
289.832535789
 21
107.5851680021
 31
0.0
  0
LINE
  5
B4
330
1F
100
AcDbEntity
  8
0
  6
Continuous
 62
     1
370
    25
100
AcDbLine
 10
289.4639592921
 20
107.5851680021
 30
0.0
 11
289.4639592921
 21
127.5509116481
 31
0.0
  0
LINE
  5
B5
330
1F
100
AcDbEntity
  8
0
  6
Continuous
 62
     1
370
    25
100
AcDbLine
 10
289.4639592921
 20
87.6194243561
 30
0.0
 11
289.4639592921
 21
107.5851680021
 31
0.0
  0
LINE
  5
B6
330
1F
100
AcDbEntity
  8
0
  6
Continuous
 62
     1
370
    25
100
AcDbLine
 10
249.8293515598
 20
107.5851680021
 30
0.0
 11
249.8293515598
 21
120.119423164
 31
0.0
  0
LINE
  5
B7
330
1F
100
AcDbEntity
  8
0
  6
Continuous
 62
     1
370
    25
100
AcDbLine
 10
249.8293515598
 20
95.0509128402
 30
0.0
 11
249.8293515598
 21
107.5851680021
 31
0.0
  0
LINE
  5
B8
330
1F
100
AcDbEntity
  8
0
  6
Continuous
 62
     1
370
    25
100
AcDbLine
 10
249.460775063
 20
107.5851680021
 30
0.0
 11
249.460775063
 21
120.0851681884
 31
0.0
  0
LINE
  5
B9
330
1F
100
AcDbEntity
  8
0
  6
Continuous
 62
     1
370
    25
100
AcDbLine
 10
249.460775063
 20
95.0851678159
 30
0.0
 11
249.460775063
 21
107.5851680021
 31
0.0
  0
LINE
  5
BA
330
1F
100
AcDbEntity
  8
0
  6
Continuous
 62
     7
370
    25
100
AcDbLine
 10
159.395003646
 20
233.2937225533
 30
0.0
 11
159.395003646
 21
282.1078385991
 31
0.0
  0
LINE
  5
BB
330
1F
100
AcDbEntity
  8
0
  6
Continuous
 62
     7
370
    25
100
AcDbLine
 10
119.3950045401
 20
282.1078385991
 30
0.0
 11
119.3950045401
 21
233.2937225533
 31
0.0
  0
ARC
  5
BC
330
1F
100
AcDbEntity
  8
0
  6
Continuous
 62
     7
370
    25
100
AcDbCircle
 10
157.395004093
 20
233.2937225211
 30
0.0
 40
2.0
100
AcDbArc
 50
349.3803447238
 51
0.0
  0
ARC
  5
BD
330
1F
100
AcDbEntity
  8
0
  6
Continuous
 62
     7
370
    25
100
AcDbCircle
 10
121.395004093
 20
233.2937225211
 30
0.0
 40
2.000000000000016
100
AcDbArc
 50
180.0
 51
190.6196552762
  0
LINE
  5
BE
330
1F
100
AcDbEntity
  8
0
  6
Continuous
 62
     7
370
    25
100
AcDbLine
 10
119.429260447
 20
232.9251460564
 30
0.0
 11
126.8607489312
 21
193.2905383241
 31
0.0
  0
LINE
  5
BF
330
1F
100
AcDbEntity
  8
0
  6
Continuous
 62
     7
370
    25
100
AcDbLine
 10
151.9292592549
 20
193.2905383241
 30
0.0
 11
159.3607477391
 21
232.9251460564
 31
0.0
  0
ARC
  5
C0
330
1F
100
AcDbEntity
  8
0
  6
Continuous
 62
     7
370
    25
100
AcDbCircle
 10
153.895004093
 20
192.9219617263
 30
0.0
 40
2.0
100
AcDbArc
 50
169.3803447238
 51
180.0
  0
ARC
  5
C1
330
1F
100
AcDbEntity
  8
0
  6
Continuous
 62
     7
370
    25
100
AcDbCircle
 10
124.895004093
 20
192.9219617263
 30
0.0
 40
2.0
100
AcDbArc
 50
0.0
 51
10.6196552762
  0
LINE
  5
C2
330
1F
100
AcDbEntity
  8
0
  6
Continuous
 62
     7
370
    25
100
AcDbLine
 10
151.8950042793
 20
152.1078433675
 30
0.0
 11
151.8950042793
 21
192.9219618273
 31
0.0
  0
LINE
  5
C3
330
1F
100
AcDbEntity
  8
0
  6
Continuous
 62
     7
370
    25
100
AcDbLine
 10
126.8950039068
 20
192.9219618273
 30
0.0
 11
126.8950039068
 21
152.1078433675
 31
0.0
  0
LINE
  5
C4
330
1F
100
AcDbEntity
  8
0
  6
Continuous
 62
     7
370
    25
100
AcDbLine
 10
159.395003646
 20
282.1078385991
 30
0.0
 11
119.3950045401
 21
282.1078385991
 31
0.0
  0
LINE
  5
C5
330
1F
100
AcDbEntity
  8
0
  6
Continuous
 62
     7
370
    25
100
AcDbLine
 10
151.8950042793
 20
152.1078433675
 30
0.0
 11
126.8950039068
 21
152.1078433675
 31
0.0
  0
LINE
  5
C6
330
1F
100
AcDbEntity
  8
0
  6
Continuous
 62
     1
370
    25
100
AcDbLine
 10
159.395003646
 20
233.2937225533
 30
0.0
 11
119.3950045401
 21
233.2937225533
 31
0.0
  0
LINE
  5
C7
330
1F
100
AcDbEntity
  8
0
  6
Continuous
 62
     1
370
    25
100
AcDbLine
 10
159.3607477391
 20
232.9251460564
 30
0.0
 11
119.429260447
 21
232.9251460564
 31
0.0
  0
LINE
  5
C8
330
1F
100
AcDbEntity
  8
0
  6
Continuous
 62
     1
370
    25
100
AcDbLine
 10
151.9292592549
 20
193.2905383241
 30
0.0
 11
126.8607489312
 21
193.2905383241
 31
0.0
  0
LINE
  5
C9
330
1F
100
AcDbEntity
  8
0
  6
Continuous
 62
     1
370
    25
100
AcDbLine
 10
151.8950042793
 20
192.9219618273
 30
0.0
 11
126.8950039068
 21
192.9219618273
 31
0.0
  0
LINE
  5
CA
330
1F
100
AcDbEntity
  8
0
  6
Continuous
 62
     7
370
    25
100
AcDbLine
 10
119.3950045401
 20
-45.1839828826
 30
0.0
 11
119.3950045401
 21
-93.9980989285
 31
0.0
  0
LINE
  5
CB
330
1F
100
AcDbEntity
  8
0
  6
Continuous
 62
     7
370
    25
100
AcDbLine
 10
159.395003646
 20
-93.9980989285
 30
0.0
 11
159.395003646
 21
-45.1839828826
 31
0.0
  0
ARC
  5
CC
330
1F
100
AcDbEntity
  8
0
  6
Continuous
 62
     7
370
    25
100
AcDbCircle
 10
121.395004093
 20
-45.1839828505
 30
0.0
 40
2.000000000000016
100
AcDbArc
 50
169.3803447238
 51
180.0
  0
ARC
  5
CD
330
1F
100
AcDbEntity
  8
0
  6
Continuous
 62
     7
370
    25
100
AcDbCircle
 10
157.395004093
 20
-45.1839828505
 30
0.0
 40
2.0
100
AcDbArc
 50
0.0
 51
10.6196552762
  0
LINE
  5
CE
330
1F
100
AcDbEntity
  8
0
  6
Continuous
 62
     7
370
    25
100
AcDbLine
 10
159.3607477391
 20
-44.8154063858
 30
0.0
 11
151.9292592549
 21
-5.1807986535
 31
0.0
  0
LINE
  5
CF
330
1F
100
AcDbEntity
  8
0
  6
Continuous
 62
     7
370
    25
100
AcDbLine
 10
126.8607489312
 20
-5.1807986535
 30
0.0
 11
119.429260447
 21
-44.8154063858
 31
0.0
  0
ARC
  5
D0
330
1F
100
AcDbEntity
  8
0
  6
Continuous
 62
     7
370
    25
100
AcDbCircle
 10
124.895004093
 20
-4.8122220557
 30
0.0
 40
2.000000000000001
100
AcDbArc
 50
349.3803447238
 51
0.0
  0
ARC
  5
D1
330
1F
100
AcDbEntity
  8
0
  6
Continuous
 62
     7
370
    25
100
AcDbCircle
 10
153.895004093
 20
-4.8122220557
 30
0.0
 40
2.0
100
AcDbArc
 50
180.0
 51
190.6196552762
  0
LINE
  5
D2
330
1F
100
AcDbEntity
  8
0
  6
Continuous
 62
     7
370
    25
100
AcDbLine
 10
126.8950039068
 20
36.0018963032
 30
0.0
 11
126.8950039068
 21
-4.8122221566
 31
0.0
  0
LINE
  5
D3
330
1F
100
AcDbEntity
  8
0
  6
Continuous
 62
     7
370
    25
100
AcDbLine
 10
151.8950042793
 20
-4.8122221566
 30
0.0
 11
151.8950042793
 21
36.0018963032
 31
0.0
  0
LINE
  5
D4
330
1F
100
AcDbEntity
  8
0
  6
Continuous
 62
     7
370
    25
100
AcDbLine
 10
119.3950045401
 20
-93.9980989285
 30
0.0
 11
159.395003646
 21
-93.9980989285
 31
0.0
  0
LINE
  5
D5
330
1F
100
AcDbEntity
  8
0
  6
Continuous
 62
     7
370
    25
100
AcDbLine
 10
126.8950039068
 20
36.0018963032
 30
0.0
 11
151.8950042793
 21
36.0018963032
 31
0.0
  0
LINE
  5
D6
330
1F
100
AcDbEntity
  8
0
  6
Continuous
 62
     1
370
    25
100
AcDbLine
 10
119.3950045401
 20
-45.1839828826
 30
0.0
 11
159.395003646
 21
-45.1839828826
 31
0.0
  0
LINE
  5
D7
330
1F
100
AcDbEntity
  8
0
  6
Continuous
 62
     1
370
    25
100
AcDbLine
 10
119.429260447
 20
-44.8154063858
 30
0.0
 11
159.3607477391
 21
-44.8154063858
 31
0.0
  0
LINE
  5
D8
330
1F
100
AcDbEntity
  8
0
  6
Continuous
 62
     1
370
    25
100
AcDbLine
 10
126.8607489312
 20
-5.1807986535
 30
0.0
 11
151.9292592549
 21
-5.1807986535
 31
0.0
  0
LINE
  5
D9
330
1F
100
AcDbEntity
  8
0
  6
Continuous
 62
     1
370
    25
100
AcDbLine
 10
126.8950039068
 20
-4.8122221566
 30
0.0
 11
151.8950042793
 21
-4.8122221566
 31
0.0
  0
LINE
  5
DA
330
1F
100
AcDbEntity
  8
0
  6
Continuous
 62
     7
370
    25
100
AcDbLine
 10
262.9941470645
 20
23.3703126791
 30
0.0
 11
228.4773545909
 21
43.2964328348
 31
0.0
  0
LINE
  5
DB
330
1F
100
AcDbEntity
  8
0
  6
Continuous
 62
     7
370
    25
100
AcDbLine
 10
208.4789805371
 20
8.6544793617
 30
0.0
 11
242.9957730108
 21
-11.2716407939
 31
0.0
  0
SPLINE
  5
DC
330
1F
100
AcDbEntity
  8
0
  6
Continuous
 62
     7
370
    25
100
AcDbSpline
210
0.0
220
0.0
230
1.0
 70
     8
 71
     3
 72
    10
 73
     6
 74
     0
 42
0.000000001
 43
0.00000001
 40
0.0
 40
0.0
 40
0.0
 40
0.0
 40
0.2987998662425711
 40
0.7513129486565551
 40
1.0
 40
1.0
 40
1.0
 40
1.0
 10
264.4866354589259
 20
22.24701613059279
 30
0.0
 10
264.3502314568002
 20
22.37512959053628
 30
0.0
 10
264.0072524108779
 20
22.69726260405845
 30
0.0
 10
263.5047361666168
 20
23.06884825783521
 30
0.0
 10
263.1252925095419
 20
23.28360214736706
 30
0.0
 10
262.9907193403623
 20
23.35976658171482
 30
0.0
  0
SPLINE
  5
DD
330
1F
100
AcDbEntity
  8
0
  6
Continuous
 62
     7
370
    25
100
AcDbSpline
210
0.0
220
0.0
230
1.0
 70
     8
 71
     3
 72
    10
 73
     6
 74
     0
 42
0.000000001
 43
0.00000001
 40
0.0
 40
0.0
 40
0.0
 40
0.0
 40
0.2331849373071673
 40
0.6827394752494403
 40
1.0
 40
1.0
 40
1.0
 40
1.0
 10
243.0007575341398
 20
-11.26187351186072
 30
0.0
 10
243.1249913649987
 20
-11.33563975109334
 30
0.0
 10
243.4887341584586
 20
-11.55161906796685
 30
0.0
 10
244.0590660045866
 20
-11.80151996152706
 30
0.0
 10
244.5161961167346
 20
-11.94242485742505
 30
0.0
 10
244.7053282117017
 20
-12.00072256620445
 30
0.0
  0
LINE
  5
DE
330
1F
100
AcDbEntity
  8
0
  6
Continuous
 62
     7
370
    25
100
AcDbLine
 10
244.6854276552
 20
-12.0039510975
 30
0.0
 11
275.901242075
 21
-21.5193103253
 31
0.0
  0
LINE
  5
DF
330
1F
100
AcDbEntity
  8
0
  6
Continuous
 62
     7
370
    25
100
AcDbLine
 10
288.323816915
 20
-0.0004476453
 30
0.0
 11
264.4732775421
 21
22.2733227585
 31
0.0
  0
LINE
  5
E0
330
1F
100
AcDbEntity
  8
0
  6
Continuous
 62
     7
370
    25
100
AcDbLine
 10
316.6515376383
 20
-16.2654583832
 30
0.0
 11
288.0763852797
 21
0.2306259444
 31
0.0
  0
LINE
  5
E1
330
1F
100
AcDbEntity
  8
0
  6
Continuous
 62
     7
370
    25
100
AcDbLine
 10
275.5774014961
 20
-21.4205957367
 30
0.0
 11
304.1525538547
 21
-37.9166800643
 31
0.0
  0
LWPOLYLINE
  5
E2
330
1F
100
AcDbEntity
  8
0
  6
Continuous
 62
     7
370
    25
100
AcDbPolyline
 90
       91
 70
   128
 43
0.0
 10
204.3360322564
 20
17.8113751625
 10
204.3704820367
 20
18.9704427575
 10
204.4736627902
 20
20.1636378504
 10
204.6450713889
 20
21.3851472251
 10
204.8838741155
 20
22.6290204325
 10
205.1889066632
 20
23.8891970731
 10
205.5586833557
 20
25.1595380692
 10
205.9914024152
 20
26.4338538022
 10
206.4849564992
 20
27.7059371916
 10
207.0369392862
 20
28.9695884091
 10
207.644663256
 20
30.218653661
 10
208.3051662753
 20
31.4470457198
 10
209.0152320129
 20
32.6487815652
 10
209.7713991587
 20
33.8180044369
 10
210.5699857905
 20
34.949019954
 10
211.4070999102
 20
36.0363174071
 10
212.2786631516
 20
37.0745994142
 10
213.1804302076
 20
38.0588068238
 10
214.1080072693
 20
38.9841460902
 10
215.0568754042
 20
39.8461073321
 10
216.0224114652
 20
40.6404931329
 10
216.9999117982
 20
41.3634322275
 10
217.9846141385
 20
42.0114012676
 10
218.9717209895
 20
42.5812459232
 10
219.9564233299
 20
43.0701900054
 10
220.9339236628
 20
43.4758487724
 10
221.8994597238
 20
43.7962471787
 10
222.8483278587
 20
44.0298257662
 10
223.7759049204
 20
44.1754441792
 10
224.6776719764
 20
44.2323948507
 10
225.5492352178
 20
44.2003983428
 10
226.3863493375
 20
44.0796122796
 10
227.1849359693
 20
43.8706252616
 10
227.9411031151
 20
43.5744543931
 10
228.6511688527
 20
43.1925429978
 10
229.311671872
 20
42.7267514927
 10
229.9193958418
 20
42.179349401
 10
230.4713786288
 20
41.5530039439
 10
230.9649327128
 20
40.8507659704
 10
231.3976517723
 20
40.0760570291
 10
231.7674284648
 20
39.2326511145
 10
232.0724610125
 20
38.3246575572
 10
232.3112637391
 20
37.356500109
 10
232.4826723378
 20
36.33289489
 10
232.5858530913
 20
35.2588297593
 10
232.6203028716
 20
34.139537034
 10
232.5858530913
 20
32.980469439
 10
232.4826723378
 20
31.787274346
 10
232.3112637391
 20
30.5657649714
 10
232.0724610125
 20
29.3218917639
 10
231.7674284648
 20
28.0617151234
 10
231.3976517723
 20
26.7913741273
 10
230.9649327128
 20
25.5170583942
 10
230.4713786288
 20
24.2449750049
 10
229.9193958418
 20
22.9813237874
 10
229.311671872
 20
21.7322585355
 10
228.6511688527
 20
20.5038664767
 10
227.9411031151
 20
19.3021306312
 10
227.1849359693
 20
18.1329077595
 10
226.3863493375
 20
17.0018922425
 10
225.5492352178
 20
15.9145947894
 10
224.6776719764
 20
14.8763127823
 10
223.7759049204
 20
13.8921053727
 10
222.8483278587
 20
12.9667661062
 10
221.8994597238
 20
12.1048048644
 10
220.9339236628
 20
11.3104190635
 10
219.9564233299
 20
10.587479969
 10
218.9717209895
 20
9.9395109289
 10
217.9846141385
 20
9.3696662733
 10
216.9999117982
 20
8.8807221911
 10
216.0224114652
 20
8.4750634241
 10
215.0568754042
 20
8.1546650177
 10
214.1080072693
 20
7.9210864303
 10
213.1804302076
 20
7.7754680173
 10
212.2786631516
 20
7.7185173457
 10
211.4070999102
 20
7.7505138536
 10
210.5699857905
 20
7.8712999169
 10
209.7713991587
 20
8.0802869349
 10
209.0152320129
 20
8.3764578034
 10
208.3051662753
 20
8.7583691987
 10
207.644663256
 20
9.2241607038
 10
207.0369392862
 20
9.7715627955
 10
206.4849564992
 20
10.3979082526
 10
205.9914024152
 20
11.100146226
 10
205.5586833557
 20
11.8748551674
 10
205.1889066632
 20
12.7182610819
 10
204.8838741155
 20
13.6262546393
 10
204.6450713889
 20
14.5944120874
 10
204.4736627902
 20
15.6180173065
 10
204.3704820367
 20
16.6920824372
 10
204.3360322564
 20
17.8113751625
  0
LWPOLYLINE
  5
E3
330
1F
100
AcDbEntity
  8
0
  6
Continuous
 62
     7
370
    25
100
AcDbPolyline
 90
       82
 70
   128
 43
0.0
 10
206.9523268536
 20
19.3217298847
 10
206.9869860511
 20
20.3731325498
 10
207.0907542263
 20
21.4582280728
 10
207.2630070791
 20
22.5704902198
 10
207.502710036
 20
23.7032308168
 10
207.8084208846
 20
24.8496372022
 10
208.17830031
 20
26.002813671
 10
208.6101244075
 20
27.1558257709
 10
209.1012958775
 20
28.3017387041
 10
209.648861148
 20
29.4336614332
 10
210.2495274962
 20
30.5447866033
 10
210.8996808301
 20
31.6284308451
 10
211.5954126879
 20
32.6780769782
 10
212.3325380193
 20
33.6874131731
 10
213.1066241612
 20
34.6503694507
 10
213.9130152039
 20
35.5611530414
 10
214.7468616258
 20
36.4142867863
 10
215.6031486103
 20
37.2046414534
 10
216.4767263393
 20
37.9274615909
 10
217.3623409449
 20
38.5784008861
 10
218.2546661602
 20
39.1535434785
 10
219.1483355884
 20
39.6494339957
 10
220.0379745183
 20
40.0630852733
 10
220.9182326875
 20
40.392013999
 10
221.7838160155
 20
40.6342384993
 10
222.6295185434
 20
40.7883032614
 10
223.4502546612
 20
40.8532823286
 10
224.2410879192
 20
40.8287837652
 10
224.997262309
 20
40.7149563078
 10
225.7142302516
 20
40.5124834689
 10
226.3876789389
 20
40.222582774
 10
227.0135596392
 20
39.8469991049
 10
227.5881074538
 20
39.3879902489
 10
228.1078669994
 20
38.8483166305
 10
228.5697121654
 20
38.2312238182
 10
228.9708658695
 20
37.5404235117
 10
229.3089145462
 20
36.780069586
 10
229.5818272441
 20
35.9547367961
 10
229.7879595776
 20
35.0693861758
 10
229.9260748002
 20
34.1293443136
 10
229.9953405116
 20
33.1402638082
 10
229.9953405116
 20
32.1080932294
 10
229.9260748002
 20
31.0390402359
 10
229.7879595776
 20
29.939533932
 10
229.5818272441
 20
28.8161879854
 10
229.3089145462
 20
27.6757569015
 10
228.9708658695
 20
26.5251002815
 10
228.5697121654
 20
25.371137767
 10
228.1078669994
 20
24.2208098763
 10
227.5881074538
 20
23.0810346599
 10
227.0135596392
 20
21.9586670173
 10
226.3876789389
 20
20.8604568731
 10
225.7142302516
 20
19.7930088744
 10
224.997262309
 20
18.7627424691
 10
224.2410879192
 20
17.7758546448
 10
223.4502546612
 20
16.8382794371
 10
222.6295185434
 20
15.955656753
 10
221.7838160155
 20
15.1332941602
 10
220.9182326875
 20
14.3761374224
 10
220.0379745183
 20
13.6887416991
 10
219.1483355884
 20
13.0752377318
 10
218.2546661602
 20
12.5393194899
 10
217.3623409449
 20
12.0842053184
 10
216.4767263393
 20
11.7126357546
 10
215.6031486103
 20
11.4268445151
 10
214.7468616258
 20
11.2285512738
 10
213.9130152039
 20
11.1189464325
 10
213.1066241612
 20
11.098690743
 10
212.3325380193
 20
11.167906185
 10
211.5954126879
 20
11.3261755877
 10
210.8996808301
 20
11.572546816
 10
210.2495274962
 20
11.9055399966
 10
209.648861148
 20
12.3231505628
 10
209.1012958775
 20
12.8228678875
 10
208.6101244075
 20
13.4016863125
 10
208.17830031
 20
14.0561249218
 10
207.8084208846
 20
14.7822476961
 10
207.502710036
 20
15.5756878488
 10
207.2630070791
 20
16.4316733026
 10
207.0907542263
 20
17.3450565391
 10
206.9869860511
 20
18.3103438772
 10
206.9523268536
 20
19.3217298847
  0
LWPOLYLINE
  5
E4
330
1F
100
AcDbEntity
  8
0
  6
Continuous
 62
     7
370
    25
100
AcDbPolyline
 90
       38
 70
   128
 43
0.0
 10
316.6515376383
 20
-16.2654583832
 10
316.855978171
 20
-16.3914653548
 10
317.3644660689
 20
-16.7838868244
 10
317.818464677
 20
-17.2569761265
 10
318.2144191723
 20
-17.8070306138
 10
318.5492311027
 20
-18.4297450153
 10
318.8202801196
 20
-19.1202466092
 10
319.0254457098
 20
-19.8731302065
 10
319.1631210246
 20
-20.6825040653
 10
319.2322293439
 20
-21.5420335712
 10
319.2322293439
 20
-22.4449919039
 10
319.1631210246
 20
-23.3843121768
 10
319.0254457098
 20
-24.3526425706
 10
318.8202801196
 20
-25.3424053163
 10
318.5492311027
 20
-26.3458534439
 10
318.2144191723
 20
-27.3551334719
 10
317.818464677
 20
-28.3623472885
 10
317.3644660689
 20
-29.3596122262
 10
316.855978171
 20
-30.3391213261
 10
316.2969785923
 20
-31.2932113968
 10
315.6918436903
 20
-32.2144133922
 10
315.0453087292
 20
-33.0955183784
 10
314.3624339651
 20
-33.9296301922
 10
313.6485638159
 20
-34.7102209513
 10
312.9092853733
 20
-35.431181621
 10
312.1503842799
 20
-36.0868702998
 10
311.3778000311
 20
-36.6721539927
 10
310.5975792178
 20
-37.1824523336
 10
309.8158281117
 20
-37.6137725623
 10
309.0386649206
 20
-37.962737847
 10
308.2721720438
 20
-38.2266178888
 10
307.5223481633
 20
-38.403347453
 10
306.7950621454
 20
-38.4915423349
 10
306.0960056256
 20
-38.4905138041
 10
305.4306494625
 20
-38.4002686478
 10
304.8042014261
 20
-38.2215138245
 10
304.2215640508
 20
-37.955648856
 10
304.1525538547
 20
-37.9166800643
  0
LWPOLYLINE
  5
E5
330
1F
100
AcDbEntity
  8
0
  6
Continuous
 62
     1
370
    25
100
AcDbPolyline
 90
       47
 70
   128
 43
0.0
 10
262.9941470645
 20
23.3703126791
 10
263.1679613263
 20
23.2664228421
 10
263.8284643457
 20
22.8006313371
 10
264.4361883154
 20
22.2532292453
 10
264.9881711024
 20
21.6268837882
 10
265.4817251864
 20
20.9246458148
 10
265.9144442459
 20
20.1499368734
 10
266.2842209384
 20
19.3065309589
 10
266.5892534862
 20
18.3985374015
 10
266.8280562127
 20
17.4303799534
 10
266.9994648115
 20
16.4067747343
 10
267.102645565
 20
15.3327096036
 10
267.1370953453
 20
14.2134168783
 10
267.102645565
 20
13.0543492834
 10
266.9994648115
 20
11.8611541904
 10
266.8280562127
 20
10.6396448158
 10
266.5892534862
 20
9.3957716083
 10
266.2842209384
 20
8.1355949677
 10
265.9144442459
 20
6.8652539716
 10
265.4817251864
 20
5.5909382386
 10
264.9881711024
 20
4.3188548492
 10
264.4361883154
 20
3.0552036317
 10
263.8284643457
 20
1.8061383798
 10
263.1679613263
 20
0.577746321
 10
262.4578955888
 20
-0.6239895244
 10
261.7017284429
 20
-1.7932123961
 10
260.9031418111
 20
-2.9242279132
 10
260.0660276915
 20
-4.0115253663
 10
259.19446445
 20
-5.0498073733
 10
258.292697394
 20
-6.034014783
 10
257.3651203323
 20
-6.9593540494
 10
256.4162521975
 20
-7.8213152912
 10
255.4507161365
 20
-8.6157010921
 10
254.4732158035
 20
-9.3386401866
 10
253.4885134631
 20
-9.9866092268
 10
252.5014066121
 20
-10.5564538823
 10
251.5167042718
 20
-11.0453979645
 10
250.5392039388
 20
-11.4510567316
 10
249.5736678778
 20
-11.7714551379
 10
248.6247997429
 20
-12.0050337253
 10
247.6972226813
 20
-12.1506521383
 10
246.7954556253
 20
-12.2076028099
 10
245.9238923838
 20
-12.175606302
 10
245.0867782641
 20
-12.0548202387
 10
244.2881916324
 20
-11.8458332208
 10
243.5320244865
 20
-11.5496623522
 10
242.9957730108
 20
-11.2716407939
  0
LWPOLYLINE
  5
E6
330
1F
100
AcDbEntity
  8
0
  6
Continuous
 62
     1
370
    25
100
AcDbPolyline
 90
       43
 70
   128
 43
0.0
 10
264.4897661795
 20
22.257874689
 10
264.6772142883
 20
22.0750205282
 10
265.2282527224
 20
21.4497481728
 10
265.7209599182
 20
20.7487125707
 10
266.1529387737
 20
19.9753307065
 10
266.5220819464
 20
19.1333697309
 10
266.8265916098
 20
18.226930989
 10
267.0649860387
 20
17.2604321488
 10
267.2361022437
 20
16.2385809648
 10
267.3391051902
 20
15.1663548402
 10
267.3734957015
 20
14.0489790573
 10
267.3391051902
 20
12.8918968352
 10
267.2361022437
 20
11.7007460399
 10
267.0649860387
 20
10.481328291
 10
266.8265916098
 20
9.2395851018
 10
266.5220819464
 20
7.9815669861
 10
266.1529387737
 20
6.7134023754
 10
265.7209599182
 20
5.4412683409
 10
265.2282527224
 20
4.1713651192
 10
264.6772142883
 20
2.90987733
 10
264.0705321359
 20
1.6629519229
 10
263.4111598375
 20
0.4366635786
 10
262.7023110902
 20
-0.7630130475
 10
261.9474379843
 20
-1.9302348825
 10
261.150219808
 20
-3.0593121081
 10
260.3145393397
 20
-4.1447477023
 10
259.4444690187
 20
-5.1812507465
 10
258.5442462495
 20
-6.1637727351
 10
257.6182582558
 20
-7.0875269657
 10
256.6710154088
 20
-7.9480115411
 10
255.707132953
 20
-8.7410366488
 10
254.7313068048
 20
-9.4627370113
 10
253.7482910381
 20
-10.1095985718
 10
252.7628749178
 20
-10.6784671893
 10
251.7798591511
 20
-11.1665714747
 10
250.8040330029
 20
-11.5715360012
 10
249.8401505471
 20
-11.8913858887
 10
248.8929077001
 20
-12.1245646251
 10
247.9669197064
 20
-12.2699333752
 10
247.0666969372
 20
-12.3267864722
 10
246.1966266162
 20
-12.2948452379
 10
245.3609461479
 20
-12.1742657748
 10
244.6994783608
 20
-12.0082186127
  0
LWPOLYLINE
  5
E7
330
1F
100
AcDbEntity
  8
0
  6
Continuous
 62
     1
370
    25
100
AcDbPolyline
 90
       34
 70
   128
 43
0.0
 10
288.323816915
 20
-0.0004476453
 10
288.7182258062
 20
-0.4190833535
 10
289.1152655828
 20
-0.9706447999
 10
289.4509948657
 20
-1.5950661465
 10
289.7227873794
 20
-2.2874596517
 10
289.9285147081
 20
-3.0424066276
 10
290.0665673689
 20
-3.853998697
 10
290.1358653489
 20
-4.7158834694
 10
290.1358653489
 20
-5.6213163483
 10
290.0665673689
 20
-6.5632108654
 10
289.9285147081
 20
-7.5341951442
 10
289.7227873794
 20
-8.5266698379
 10
289.4509948657
 20
-9.5328682999
 10
289.1152655828
 20
-10.5449144257
 10
288.7182258062
 20
-11.5548882405
 10
288.262983866
 20
-12.5548854047
 10
287.7531018295
 20
-13.5370799485
 10
287.1925704762
 20
-14.4937843468
 10
286.5857773591
 20
-15.417510163
 10
285.9374705841
 20
-16.3010296427
 10
285.2527242365
 20
-17.1374279928
 10
284.5368978808
 20
-17.9201579406
 10
283.795593426
 20
-18.6430942929
 10
283.0346126491
 20
-19.3005797504
 10
282.2599111796
 20
-19.887467441
 10
281.4775521958
 20
-20.3991643815
 10
280.693658721
 20
-20.83166662
 10
279.9143657969
 20
-21.1815883672
 10
279.1457723278
 20
-21.4461913171
 10
278.3938936238
 20
-21.6234051984
 10
277.6646145209
 20
-21.7118419106
 10
276.9636419659
 20
-21.7108107285
 10
276.2964626224
 20
-21.6203184408
 10
275.901242075
 20
-21.5193103253
  0
LWPOLYLINE
  5
E8
330
1F
100
AcDbEntity
  8
0
  6
Continuous
 62
     1
370
    25
100
AcDbPolyline
 90
       36
 70
   128
 43
0.0
 10
288.1451327165
 20
0.1664236653
 10
288.5045261378
 20
-0.1233981307
 10
288.9585247459
 20
-0.5964874327
 10
289.3544792412
 20
-1.1465419201
 10
289.6892911716
 20
-1.7692563216
 10
289.9603401885
 20
-2.4597579154
 10
290.1655057787
 20
-3.2126415128
 10
290.3031810935
 20
-4.0220153716
 10
290.3722894128
 20
-4.8815448775
 10
290.3722894128
 20
-5.7845032102
 10
290.3031810935
 20
-6.7238234831
 10
290.1655057787
 20
-7.6921538769
 10
289.9603401885
 20
-8.6819166225
 10
289.6892911716
 20
-9.6853647501
 10
289.3544792412
 20
-10.6946447782
 10
288.9585247459
 20
-11.7018585948
 10
288.5045261378
 20
-12.6991235324
 10
287.9960382399
 20
-13.6786326324
 10
287.4370386612
 20
-14.632722703
 10
286.8319037592
 20
-15.5539246985
 10
286.1853687981
 20
-16.4350296847
 10
285.502494034
 20
-17.2691414984
 10
284.7886238848
 20
-18.0497322575
 10
284.0493454422
 20
-18.7706929273
 10
283.2904443488
 20
-19.4263816061
 10
282.5178601
 20
-20.0116652989
 10
281.7376392867
 20
-20.5219636398
 10
280.9558881806
 20
-20.9532838685
 10
280.1787249895
 20
-21.3022491533
 10
279.4122321127
 20
-21.566129195
 10
278.6624082322
 20
-21.7428587592
 10
277.9351222143
 20
-21.8310536412
 10
277.2360656946
 20
-21.8300251104
 10
276.5707095314
 20
-21.739779954
 10
275.944261495
 20
-21.5610251308
 10
275.6673777737
 20
-21.4480232619
  0
ENDSEC
  0
SECTION
  2
OBJECTS
  0
DICTIONARY
  5
C
330
0
100
AcDbDictionary
281
     1
  3
ACAD_GROUP
350
D
  3
ACAD_LAYOUT
350
1A
  3
ACAD_MLINESTYLE
350
17
  3
ACAD_PLOTSETTINGS
350
19
  3
ACAD_PLOTSTYLENAME
350
E
  3
ACAD_SCALELIST
350
47
  0
DICTIONARY
  5
D
102
{ACAD_REACTORS
330
C
102
}
330
C
100
AcDbDictionary
281
     1
  0
DICTIONARY
  5
1A
102
{ACAD_REACTORS
330
C
102
}
330
C
100
AcDbDictionary
281
     1
  3
Layout1
350
1E
  3
Layout2
350
26
  3
Model
350
22
  0
DICTIONARY
  5
17
102
{ACAD_REACTORS
330
C
102
}
330
C
100
AcDbDictionary
281
     1
  3
Standard
350
18
  0
DICTIONARY
  5
19
102
{ACAD_REACTORS
330
C
102
}
330
C
100
AcDbDictionary
281
     1
  0
ACDBDICTIONARYWDFLT
  5
E
102
{ACAD_REACTORS
330
C
102
}
330
C
100
AcDbDictionary
281
     1
  3
Normal
350
F
100
AcDbDictionaryWithDefault
340
F
  0
DICTIONARY
  5
47
102
{ACAD_REACTORS
330
C
102
}
330
C
100
AcDbDictionary
281
     1
  3
A0
350
48
  3
A1
350
49
  3
A2
350
4A
  3
A3
350
4B
  3
A4
350
4C
  3
A5
350
4D
  3
A6
350
4E
  3
A7
350
4F
  3
A8
350
50
  3
A9
350
51
  3
B0
350
52
  3
B1
350
53
  3
B2
350
54
  3
B3
350
55
  3
B4
350
56
  3
B5
350
57
  3
B6
350
58
  3
B7
350
59
  3
B8
350
5A
  3
B9
350
5B
  3
C0
350
5C
  3
C1
350
5D
  3
C2
350
5E
  3
C3
350
5F
  3
C4
350
60
  3
C5
350
61
  3
C6
350
62
  3
C7
350
63
  3
C8
350
64
  3
C9
350
65
  3
D0
350
66
  3
D1
350
67
  3
D2
350
68
  0
LAYOUT
  5
1E
102
{ACAD_REACTORS
330
1A
102
}
330
1A
100
AcDbPlotSettings
  1

  2
none_device
  4

  6

 40
0.0
 41
0.0
 42
0.0
 43
0.0
 44
0.0
 45
0.0
 46
0.0
 47
0.0
 48
0.0
 49
0.0
140
0.0
141
0.0
142
1.0
143
1.0
 70
   688
 72
     1
 73
     0
 74
     5
  7

 75
    16
147
1.0
148
0.0
149
0.0
100
AcDbLayout
  1
Layout1
 70
     1
 71
     1
 10
0.0
 20
0.0
 11
420.0
 21
297.0
 12
0.0
 22
0.0
 32
0.0
 14
1.0000000000E+20
 24
1.0000000000E+20
 34
1.0000000000E+20
 15
-1.0000000000E+20
 25
-1.0000000000E+20
 35
-1.0000000000E+20
146
0.0
 13
0.0
 23
0.0
 33
0.0
 16
1.0
 26
0.0
 36
0.0
 17
0.0
 27
1.0
 37
0.0
 76
     0
330
1B
  0
LAYOUT
  5
26
102
{ACAD_REACTORS
330
1A
102
}
330
1A
100
AcDbPlotSettings
  1

  2
none_device
  4

  6

 40
0.0
 41
0.0
 42
0.0
 43
0.0
 44
0.0
 45
0.0
 46
0.0
 47
0.0
 48
0.0
 49
0.0
140
0.0
141
0.0
142
1.0
143
1.0
 70
   688
 72
     1
 73
     0
 74
     5
  7

 75
    16
147
1.0
148
0.0
149
0.0
100
AcDbLayout
  1
Layout2
 70
     1
 71
     2
 10
0.0
 20
0.0
 11
0.0
 21
0.0
 12
0.0
 22
0.0
 32
0.0
 14
0.0
 24
0.0
 34
0.0
 15
0.0
 25
0.0
 35
0.0
146
0.0
 13
0.0
 23
0.0
 33
0.0
 16
1.0
 26
0.0
 36
0.0
 17
0.0
 27
1.0
 37
0.0
 76
     0
330
23
  0
LAYOUT
  5
22
102
{ACAD_REACTORS
330
1A
102
}
330
1A
100
AcDbPlotSettings
  1

  2
none_device
  4
Letter_(8.50_x_11.00_Inches)
  6

 40
6.35
 41
6.35
 42
6.35000508
 43
6.35000508
 44
215.9
 45
279.4
 46
0.0
 47
0.0
 48
0.0
 49
0.0
140
0.0
141
0.0
142
1.0
143
1.0
 70
  1712
 72
     1
 73
     0
 74
     0
  7

 75
     0
147
1.0
148
0.0
149
0.0
100
AcDbLayout
  1
Model
 70
     1
 71
     0
 10
0.0
 20
0.0
 11
279.4
 21
215.9
 12
0.0
 22
0.0
 32
0.0
 14
0.0
 24
0.0
 34
0.0
 15
279.4
 25
215.9
 35
0.0
146
0.0
 13
0.0
 23
0.0
 33
0.0
 16
1.0
 26
0.0
 36
0.0
 17
0.0
 27
1.0
 37
0.0
 76
     0
330
1F
331
29
  0
MLINESTYLE
  5
18
102
{ACAD_REACTORS
330
17
102
}
330
17
100
AcDbMlineStyle
  2
Standard
 70
     0
  3

 62
   256
 51
90.0
 52
90.0
 71
     2
 49
0.5
 62
   256
  6
BYLAYER
 49
-0.5
 62
   256
  6
BYLAYER
  0
ACDBPLACEHOLDER
  5
F
102
{ACAD_REACTORS
330
E
102
}
330
E
  0
SCALE
  5
48
102
{ACAD_REACTORS
330
47
102
}
330
47
100
AcDbScale
 70
     0
300
1:1
140
1.0
141
1.0
290
     1
  0
SCALE
  5
49
102
{ACAD_REACTORS
330
47
102
}
330
47
100
AcDbScale
 70
     0
300
1:2
140
1.0
141
2.0
290
     0
  0
SCALE
  5
4A
102
{ACAD_REACTORS
330
47
102
}
330
47
100
AcDbScale
 70
     0
300
1:4
140
1.0
141
4.0
290
     0
  0
SCALE
  5
4B
102
{ACAD_REACTORS
330
47
102
}
330
47
100
AcDbScale
 70
     0
300
1:5
140
1.0
141
5.0
290
     0
  0
SCALE
  5
4C
102
{ACAD_REACTORS
330
47
102
}
330
47
100
AcDbScale
 70
     0
300
1:8
140
1.0
141
8.0
290
     0
  0
SCALE
  5
4D
102
{ACAD_REACTORS
330
47
102
}
330
47
100
AcDbScale
 70
     0
300
1:10
140
1.0
141
10.0
290
     0
  0
SCALE
  5
4E
102
{ACAD_REACTORS
330
47
102
}
330
47
100
AcDbScale
 70
     0
300
1:16
140
1.0
141
16.0
290
     0
  0
SCALE
  5
4F
102
{ACAD_REACTORS
330
47
102
}
330
47
100
AcDbScale
 70
     0
300
1:20
140
1.0
141
20.0
290
     0
  0
SCALE
  5
50
102
{ACAD_REACTORS
330
47
102
}
330
47
100
AcDbScale
 70
     0
300
1:30
140
1.0
141
30.0
290
     0
  0
SCALE
  5
51
102
{ACAD_REACTORS
330
47
102
}
330
47
100
AcDbScale
 70
     0
300
1:40
140
1.0
141
40.0
290
     0
  0
SCALE
  5
52
102
{ACAD_REACTORS
330
47
102
}
330
47
100
AcDbScale
 70
     0
300
1:50
140
1.0
141
50.0
290
     0
  0
SCALE
  5
53
102
{ACAD_REACTORS
330
47
102
}
330
47
100
AcDbScale
 70
     0
300
1:100
140
1.0
141
100.0
290
     0
  0
SCALE
  5
54
102
{ACAD_REACTORS
330
47
102
}
330
47
100
AcDbScale
 70
     0
300
2:1
140
2.0
141
1.0
290
     0
  0
SCALE
  5
55
102
{ACAD_REACTORS
330
47
102
}
330
47
100
AcDbScale
 70
     0
300
4:1
140
4.0
141
1.0
290
     0
  0
SCALE
  5
56
102
{ACAD_REACTORS
330
47
102
}
330
47
100
AcDbScale
 70
     0
300
8:1
140
8.0
141
1.0
290
     0
  0
SCALE
  5
57
102
{ACAD_REACTORS
330
47
102
}
330
47
100
AcDbScale
 70
     0
300
10:1
140
10.0
141
1.0
290
     0
  0
SCALE
  5
58
102
{ACAD_REACTORS
330
47
102
}
330
47
100
AcDbScale
 70
     0
300
100:1
140
100.0
141
1.0
290
     0
  0
SCALE
  5
59
102
{ACAD_REACTORS
330
47
102
}
330
47
100
AcDbScale
 70
     0
300
1/128" = 1'-0"
140
0.0078125
141
12.0
290
     0
  0
SCALE
  5
5A
102
{ACAD_REACTORS
330
47
102
}
330
47
100
AcDbScale
 70
     0
300
1/64" = 1'-0"
140
0.015625
141
12.0
290
     0
  0
SCALE
  5
5B
102
{ACAD_REACTORS
330
47
102
}
330
47
100
AcDbScale
 70
     0
300
1/32" = 1'-0"
140
0.03125
141
12.0
290
     0
  0
SCALE
  5
5C
102
{ACAD_REACTORS
330
47
102
}
330
47
100
AcDbScale
 70
     0
300
1/16" = 1'-0"
140
0.0625
141
12.0
290
     0
  0
SCALE
  5
5D
102
{ACAD_REACTORS
330
47
102
}
330
47
100
AcDbScale
 70
     0
300
3/32" = 1'-0"
140
0.09375
141
12.0
290
     0
  0
SCALE
  5
5E
102
{ACAD_REACTORS
330
47
102
}
330
47
100
AcDbScale
 70
     0
300
1/8" = 1'-0"
140
0.125
141
12.0
290
     0
  0
SCALE
  5
5F
102
{ACAD_REACTORS
330
47
102
}
330
47
100
AcDbScale
 70
     0
300
3/16" = 1'-0"
140
0.1875
141
12.0
290
     0
  0
SCALE
  5
60
102
{ACAD_REACTORS
330
47
102
}
330
47
100
AcDbScale
 70
     0
300
1/4" = 1'-0"
140
0.25
141
12.0
290
     0
  0
SCALE
  5
61
102
{ACAD_REACTORS
330
47
102
}
330
47
100
AcDbScale
 70
     0
300
3/8" = 1'-0"
140
0.375
141
12.0
290
     0
  0
SCALE
  5
62
102
{ACAD_REACTORS
330
47
102
}
330
47
100
AcDbScale
 70
     0
300
1/2" = 1'-0"
140
0.5
141
12.0
290
     0
  0
SCALE
  5
63
102
{ACAD_REACTORS
330
47
102
}
330
47
100
AcDbScale
 70
     0
300
3/4" = 1'-0"
140
0.75
141
12.0
290
     0
  0
SCALE
  5
64
102
{ACAD_REACTORS
330
47
102
}
330
47
100
AcDbScale
 70
     0
300
1" = 1'-0"
140
1.0
141
12.0
290
     0
  0
SCALE
  5
65
102
{ACAD_REACTORS
330
47
102
}
330
47
100
AcDbScale
 70
     0
300
1-1/2" = 1'-0"
140
1.5
141
12.0
290
     0
  0
SCALE
  5
66
102
{ACAD_REACTORS
330
47
102
}
330
47
100
AcDbScale
 70
     0
300
3" = 1'-0"
140
3.0
141
12.0
290
     0
  0
SCALE
  5
67
102
{ACAD_REACTORS
330
47
102
}
330
47
100
AcDbScale
 70
     0
300
6" = 1'-0"
140
6.0
141
12.0
290
     0
  0
SCALE
  5
68
102
{ACAD_REACTORS
330
47
102
}
330
47
100
AcDbScale
 70
     0
300
1'-0" = 1'-0"
140
12.0
141
12.0
290
     0
  0
ENDSEC
  0
EOF
